SadistruH

Dünya Keranesinde Bakire Değilsin Tecavüz Edenler Var
 
Metalin SadistiAnasayfaGaleriKayıt OlGiriş yap
Sayfayı FaceBook'ta Paylaş
Menü
(140 Grup)

En son konular
» Lacrimosa Biyografi
Çarş. Şub. 16, 2011 9:03 am tarafından filth

» Haluk Levent - Karagöz Ve Hacivat Albüm Kritik
Ptsi Şub. 14, 2011 1:19 pm tarafından deli kızın donu

» Cradle of Filth Meraklılarına
Ptsi Şub. 14, 2011 1:08 pm tarafından deli kızın donu

» Sokak Sayfası Açıldı
Ptsi Ocak 24, 2011 12:40 pm tarafından deli kızın donu

» tarihi işkence aletleri
Çarş. Ekim 06, 2010 5:56 am tarafından Jade

» Ozzy Osbourne İstanbul Konseri
Perş. Eyl. 30, 2010 12:53 am tarafından deli kızın donu

» Lamb Of God - Walk With Me İn Hell Şarkı Sözü Türkçe
Perş. Eyl. 30, 2010 12:52 am tarafından deli kızın donu

» Lityum
Perş. Tem. 29, 2010 10:05 am tarafından deli kızın donu

» Kurban
Perş. Tem. 29, 2010 9:54 am tarafından deli kızın donu

Galeriler
 
 
Yabancı Gruplar
Yerli Gruplar
Arama
 
 

Sonuç :
 
Rechercher çıkıntı araştırma

Paylaş | 
 

 The Wicked Game (Bass Tab)

Aşağa gitmek 
YazarMesaj
Midnightgirl
ModeratöR
ModeratöR
avatar

Mesaj Sayısı : 283
Yaş : 23
meslek : Öğrenciyim,bitkinim...
Kayıt tarihi : 14/08/08

MesajKonu: The Wicked Game (Bass Tab)   Ptsi Ekim 06, 2008 7:51 am

Intro
Moderately Fast Rock Q=120
4/4
Gtr I
E E E E E E E E E E E E E E E E E E E E E E E E E E E E E E E E
||------------------|-----------------|-----------------|-------------------||
||o-----------------|-----------------|-----------------|------------------o||
||o-2-2-2-2-2-2-2-2-|-0-0-0-0-0-0-0-0-|-----------------|------------------o||
||------------------|-----------------|-0-0-0-0-0-0-0-0-|-0-0-0-0-0-0-0-0---||


Verse
$
E E E E E E E E E E E E E E E E E E E E E E E E E E E E E E E E
||------------------|-----------------|-----------------|------------------||
||o-----------------|-----------------|-----------------|-----------------o||
||o-2-2-2-2-2-2-2-2-|-0-0-0-0-0-0-0-0-|-----------------|-----------------o||
||------------------|-----------------|-0-0-0-0-0-0-0-0-|-0-0-0-0-0-0-0-0--||


Pre-Chorus
$$ To Dbl. Coda
E E E E E E E E E E E E E E E E E E E E E E E E E E E E E E E E
||------------------|-----------------|-----------------|------------------||
||o-----------------|-----------------|-----------------|-----------------o||
||o-2-2-2-2-2-2-2-2-|-0-0-0-0-0-0-0-0-|-----------------|-----------------o||
||------------------|-----------------|-0-0-0-0-0-0-0-0-|-0-0-0-0-0-0-0-0--||


Chorus
To Coda
E E E E E E E E E E E E E E E E E E E E E E E E E E E E E E E E
||------------------|-----------------|-----------------|------------------||
||o-----------------|-----------------|-----------------|-----------------o||
||o-2-2-2-2-2-2-2-2-|-0-0-0-0-0-0-0-0-|-----------------|-----------------o||
||------------------|-----------------|-0-0-0-0-0-0-0-0-|-0-0-0-0-0-0-0-0--||


Breakdown
D.S. al Coda
E E E E E E E E E E E E E E E E E E E E E E E E E E E E E E E E
|-----------------|-----------------|-----------------|------------------||
|-----------------|-----------------|-----------------|------------------||
|-2-2-2-2-2-2-2-2-|-0-0-0-0-0-0-0-0-|-----------------|------------------||
|-----------------|-----------------|-0-0-0-0-0-0-0-0-|-0-0-0-0-0-0-0-0--||


Guitar Solo
&
E E E E E E E E E E E E E E E E E E E E E E E E E E E E E E E E 4x
||------------------|-----------------|-----------------|------------------||
||o-----------------|-----------------|-----------------|-----------------o||
||o-2-2-2-2-2-2-2-2-|-0-0-0-0-0-0-0-0-|-----------------|-----------------o||
||------------------|-----------------|-0-0-0-0-0-0-0-0-|-0-0-0-0-0-0-0-0--||


Interlude
D.S.S. al Dbl. Coda
Wx7 H Q Q
|------------|-------------||
|------------|-------------||
|------------|-------------||
|------------|---------7\--||


Out-Chorus
&&
E E E E E E E E E E E E E E E E E E E E E E E E E E E E E E E E 5x
||------------------|-----------------|-----------------|------------------||
||o-----------------|-----------------|-----------------|-----------------o||
||o-2-2-2-2-2-2-2-2-|-0-0-0-0-0-0-0-0-|-----------------|-----------------o||
||------------------|-----------------|-0-0-0-0-0-0-0-0-|-0-0-0-0-0-0-0-0--||


W +W +W +W
|----------|------------|------------|--------*|
|----------|------------|------------|--------*|
|-2--------|-(2)--------|-(2)--------|-(2)----*|
|----------|------------|------------|--------*|


Duration Legend
---------------
W - whole; H - half; Q - quarter; E - 8th; S - 16th; T - 32nd; X - 64th; a - acciaccatura
+ - note tied to previous; . - note dotted; .. - note double dotted
Uncapitalized letters represent notes that are staccato (1/2 duration)
Irregular groupings are notated above the duration line
Duration letters will always appear directly above the note/fret number it represents the
duration for. Duration letters with no fret number below them represent rests. Multi-
bar rests are notated in the form Wxn, where n is the number of bars to rest for. Low
melody durations appear below the staff

Tablature Legend
----------------
h - hammer-on
p - pull-off
b - bend
pb - pre-bend
r - bend release (if no number after the r, then release immediately)
/\ - slide into or out of (from/to "nowhere")
s - legato slide
S - shift slide
- natural harmonic
[n] - artificial harmonic
n(n) - tapped harmonic
~ - vibrato
tr - trill
T - tap
TP - trem. picking
PM - palm muting
\n/ - tremolo bar dip; n = amount to dip
\n - tremolo bar down
n/ - tremolo bar up
/n\ - tremolo bar inverted dip
= - hold bend; also acts as connecting device for hammers/pulls
<> - volume swell (louder/softer)
x - on rhythm slash represents muted slash
o - on rhythm slash represents single note slash
Sayfa başına dön Aşağa gitmek
Kullanıcı profilini gör
 
The Wicked Game (Bass Tab)
Sayfa başına dön 
1 sayfadaki 1 sayfası

Bu forumun müsaadesi var:Bu forumdaki mesajlara cevap veremezsiniz
SadistruH :: Kings of Metal :: H.I.M.-
Buraya geçin: